ISO-10303-21;
HEADER;
FILE_DESCRIPTION (( 'STEP AP203' ),
    '1' );
FILE_NAME ('QB-CTZQWP-38.1-1310-M.STEP',
    '2020-12-24T01:51:49',
    ( '' ),
    ( '' ),
    'SwSTEP 2.0',
    'SolidWorks 2020',
    '' );
FILE_SCHEMA (( 'CONFIG_CONTROL_DESIGN' ));
ENDSEC;

DATA;
#1 = CYLINDRICAL_SURFACE ( 'NONE', #137, 25.39999999999999858 ) ;
#2 = DIRECTION ( 'NONE',  ( 1.000000000000000000, 0.000000000000000000, 0.000000000000000000 ) ) ;
#3 = ORIENTED_EDGE ( 'NONE', *, *, #135, .T. ) ;
#4 = FACE_OUTER_BOUND ( 'NONE', #171, .T. ) ;
#5 = DESIGN_CONTEXT ( 'detailed design', #132, 'design' ) ;
#6 = DIRECTION ( 'NONE',  ( 1.000000000000000000, 0.000000000000000000, 0.000000000000000000 ) ) ;
#7 = PERSON_AND_ORGANIZATION_ROLE ( 'design_owner' ) ;
#8 = PERSON_AND_ORGANIZATION ( #17, #130 ) ;
#9 = UNCERTAINTY_MEASURE_WITH_UNIT (LENGTH_MEASURE( 1.000000000000000082E-05 ), #47, 'distance_accuracy_value', 'NONE');
#10 = CARTESIAN_POINT ( 'NONE',  ( -1.614212418857619014, 0.000000000000000000, 0.000000000000000000 ) ) ;
#11 = LOCAL_TIME ( 9, 51, 49.00000000000000000, #151 ) ;
#12 = DIRECTION ( 'NONE',  ( 0.000000000000000000, 0.000000000000000000, 1.000000000000000000 ) ) ;
#13 = DIRECTION ( 'NONE',  ( -1.000000000000000000, -0.000000000000000000, -0.000000000000000000 ) ) ;
#14 = MANIFOLD_SOLID_BREP ( 'Ðý×', #60 ) ;
#15 = CARTESIAN_POINT ( 'NONE',  ( -3.000000000000000000, 0.000000000000000000, 25.39999999999999858 ) ) ;
#16 = VECTOR ( 'NONE', #24, 1000.000000000000000 ) ;
#17 = PERSON ( 'UNSPECIFIED', 'UNSPECIFIED', 'UNSPECIFIED', ('UNSPECIFIED'), ('UNSPECIFIED'), ('UNSPECIFIED') ) ;
#18 = LOCAL_TIME ( 9, 51, 49.00000000000000000, #113 ) ;
#19 = DATE_AND_TIME ( #23, #11 ) ;
#20 = PERSON_AND_ORGANIZATION ( #17, #130 ) ;
#21 = AXIS2_PLACEMENT_3D ( 'NONE', #106, #39, #59 ) ;
#22 = PERSON_AND_ORGANIZATION ( #17, #130 ) ;
#23 = CALENDAR_DATE ( 2020, 24, 12 ) ;
#24 = DIRECTION ( 'NONE',  ( -1.000000000000000000, -0.000000000000000000, -0.000000000000000000 ) ) ;
#25 = AXIS2_PLACEMENT_3D ( 'NONE', #10, #69, #121 ) ;
#26 = CC_DESIGN_PERSON_AND_ORGANIZATION_ASSIGNMENT ( #22, #103, ( #28 ) ) ;
#27 = DIRECTION ( 'NONE',  ( -1.000000000000000000, -0.000000000000000000, -0.000000000000000000 ) ) ;
#28 = PRODUCT_DEFINITION_FORMATION_WITH_SPECIFIED_SOURCE ( 'ANY', '', #67, .NOT_KNOWN. ) ;
#29 = ORIENTED_EDGE ( 'NONE', *, *, #135, .F. ) ;
#30 = CIRCLE ( 'NONE', #100, 25.39999999999999858 ) ;
#31 = PRODUCT_DEFINITION ( 'UNKNOWN', '', #28, #5 ) ;
#32 = EDGE_LOOP ( 'NONE', ( #3, #109, #97, #48 ) ) ;
#33 = APPROVAL_ROLE ( '' ) ;
#34 = ADVANCED_FACE ( 'NONE', ( #122 ), #175, .F. ) ;
#35 = COORDINATED_UNIVERSAL_TIME_OFFSET ( 8, 0, .AHEAD. ) ;
#36 = APPROVAL_DATE_TIME ( #64, #42 ) ;
#37 = DATE_TIME_ROLE ( 'classification_date' ) ;
#38 = CIRCLE ( 'NONE', #83, 25.39999999999999858 ) ;
#39 = DIRECTION ( 'NONE',  ( -1.000000000000000000, 0.000000000000000000, -0.000000000000000000 ) ) ;
#40 = PERSON_AND_ORGANIZATION ( #17, #130 ) ;
#41 = CARTESIAN_POINT ( 'NONE',  ( -1.614212418857619014, 0.000000000000000000, 25.39999999999999858 ) ) ;
#42 = APPROVAL ( #127, 'UNSPECIFIED' ) ;
#43 = AXIS2_PLACEMENT_3D ( 'NONE', #156, #98, #76 ) ;
#44 = VERTEX_POINT ( 'NONE', #57 ) ;
#45 = PLANE ( 'NONE',  #157 ) ;
#46 = ADVANCED_FACE ( 'NONE', ( #167 ), #164, .T. ) ;
#47 =( LENGTH_UNIT ( ) NAMED_UNIT ( * ) SI_UNIT ( .MILLI., .METRE. ) );
#48 = ORIENTED_EDGE ( 'NONE', *, *, #58, .F. ) ;
#49 = APPLICATION_PROTOCOL_DEFINITION ( 'international standard', 'config_control_design', 1994, #55 ) ;
#50 = LOCAL_TIME ( 9, 51, 49.00000000000000000, #129 ) ;
#51 = PERSON_AND_ORGANIZATION ( #17, #130 ) ;
#52 = CALENDAR_DATE ( 2020, 24, 12 ) ;
#53 = ADVANCED_BREP_SHAPE_REPRESENTATION ( 'QB-CTZQWP-38.1-1310-M', ( #14, #75 ), #159 ) ;
#54 = CC_DESIGN_DATE_AND_TIME_ASSIGNMENT ( #153, #37, ( #150 ) ) ;
#55 = APPLICATION_CONTEXT ( 'configuration controlled 3d designs of mechanical parts and assemblies' ) ;
#56 = CC_DESIGN_APPROVAL ( #71, ( #150 ) ) ;
#57 = CARTESIAN_POINT ( 'NONE',  ( 3.000000000000000000, 3.110602869834276865E-15, -25.39999999999999858 ) ) ;
#58 = EDGE_CURVE ( 'NONE', #112, #133, #152, .T. ) ;
#59 = DIRECTION ( 'NONE',  ( -0.000000000000000000, 0.000000000000000000, 1.000000000000000000 ) ) ;
#60 = CLOSED_SHELL ( 'NONE', ( #46, #34, #95, #166 ) ) ;
#61 = DIRECTION ( 'NONE',  ( 0.000000000000000000, 0.000000000000000000, -1.000000000000000000 ) ) ;
#62 = CC_DESIGN_DATE_AND_TIME_ASSIGNMENT ( #68, #116, ( #31 ) ) ;
#63 = CARTESIAN_POINT ( 'NONE',  ( 3.000000000000000000, 0.000000000000000000, 25.39999999999999858 ) ) ;
#64 = DATE_AND_TIME ( #144, #18 ) ;
#65 = APPROVAL_ROLE ( '' ) ;
#66 = PERSON_AND_ORGANIZATION ( #17, #130 ) ;
#67 = PRODUCT ( 'QB-CTZQWP-38.1-1310-M', 'QB-CTZQWP-38.1-1310-M', '', ( #146 ) ) ;
#68 = DATE_AND_TIME ( #52, #104 ) ;
#69 = DIRECTION ( 'NONE',  ( -1.000000000000000000, -0.000000000000000000, -0.000000000000000000 ) ) ;
#70 = EDGE_CURVE ( 'NONE', #133, #143, #163, .T. ) ;
#71 = APPROVAL ( #90, 'UNSPECIFIED' ) ;
#72 = FACE_OUTER_BOUND ( 'NONE', #74, .T. ) ;
#73 = DIRECTION ( 'NONE',  ( -1.000000000000000000, -0.000000000000000000, -0.000000000000000000 ) ) ;
#74 = EDGE_LOOP ( 'NONE', ( #86, #169, #107, #91 ) ) ;
#75 = AXIS2_PLACEMENT_3D ( 'NONE', #172, #78, #6 ) ;
#76 = DIRECTION ( 'NONE',  ( 0.000000000000000000, 0.000000000000000000, 1.000000000000000000 ) ) ;
#77 = PERSON_AND_ORGANIZATION_ROLE ( 'creator' ) ;
#78 = DIRECTION ( 'NONE',  ( 0.000000000000000000, 0.000000000000000000, 1.000000000000000000 ) ) ;
#79 = VECTOR ( 'NONE', #124, 1000.000000000000000 ) ;
#80 = SHAPE_DEFINITION_REPRESENTATION ( #148, #53 ) ;
#81 = EDGE_CURVE ( 'NONE', #143, #133, #38, .T. ) ;
#82 = CARTESIAN_POINT ( 'NONE',  ( -3.000000000000000000, 0.000000000000000000, 0.000000000000000000 ) ) ;
#83 = AXIS2_PLACEMENT_3D ( 'NONE', #82, #138, #12 ) ;
#84 = DIRECTION ( 'NONE',  ( 0.000000000000000000, 0.000000000000000000, 1.000000000000000000 ) ) ;
#85 = ORIENTED_EDGE ( 'NONE', *, *, #101, .F. ) ;
#86 = ORIENTED_EDGE ( 'NONE', *, *, #126, .F. ) ;
#87 = CALENDAR_DATE ( 2020, 24, 12 ) ;
#88 =( NAMED_UNIT ( * ) SI_UNIT ( $, .STERADIAN. ) SOLID_ANGLE_UNIT ( ) );
#89 = COORDINATED_UNIVERSAL_TIME_OFFSET ( 8, 0, .AHEAD. ) ;
#90 = APPROVAL_STATUS ( 'not_yet_approved' ) ;
#91 = ORIENTED_EDGE ( 'NONE', *, *, #81, .F. ) ;
#92 = PERSON_AND_ORGANIZATION_ROLE ( 'classification_officer' ) ;
#93 = LOCAL_TIME ( 9, 51, 49.00000000000000000, #35 ) ;
#94 = CARTESIAN_POINT ( 'NONE',  ( -3.000000000000000000, 0.000000000000000000, 0.000000000000000000 ) ) ;
#95 = ADVANCED_FACE ( 'NONE', ( #72 ), #1, .T. ) ;
#96 = CC_DESIGN_PERSON_AND_ORGANIZATION_ASSIGNMENT ( #20, #7, ( #67 ) ) ;
#97 = ORIENTED_EDGE ( 'NONE', *, *, #70, .F. ) ;
#98 = DIRECTION ( 'NONE',  ( -1.000000000000000000, -0.000000000000000000, -0.000000000000000000 ) ) ;
#99 = EDGE_LOOP ( 'NONE', ( #29, #85 ) ) ;
#100 = AXIS2_PLACEMENT_3D ( 'NONE', #111, #73, #155 ) ;
#101 = EDGE_CURVE ( 'NONE', #44, #112, #119, .T. ) ;
#102 = CALENDAR_DATE ( 2020, 24, 12 ) ;
#103 = PERSON_AND_ORGANIZATION_ROLE ( 'creator' ) ;
#104 = LOCAL_TIME ( 9, 51, 49.00000000000000000, #89 ) ;
#105 = CC_DESIGN_PERSON_AND_ORGANIZATION_ASSIGNMENT ( #66, #92, ( #150 ) ) ;
#106 = CARTESIAN_POINT ( 'NONE',  ( 3.000000000000001332, 19.05000000000000071, 0.000000000000000000 ) ) ;
#107 = ORIENTED_EDGE ( 'NONE', *, *, #58, .T. ) ;
#108 = AXIS2_PLACEMENT_3D ( 'NONE', #94, #27, #154 ) ;
#109 = ORIENTED_EDGE ( 'NONE', *, *, #126, .T. ) ;
#110 = CARTESIAN_POINT ( 'NONE',  ( -1.614212418857619014, 0.000000000000000000, 0.000000000000000000 ) ) ;
#111 = CARTESIAN_POINT ( 'NONE',  ( 3.000000000000000000, 0.000000000000000000, 0.000000000000000000 ) ) ;
#112 = VERTEX_POINT ( 'NONE', #63 ) ;
#113 = COORDINATED_UNIVERSAL_TIME_OFFSET ( 8, 0, .AHEAD. ) ;
#114 = CC_DESIGN_PERSON_AND_ORGANIZATION_ASSIGNMENT ( #40, #118, ( #28 ) ) ;
#115 = DATE_AND_TIME ( #87, #93 ) ;
#116 = DATE_TIME_ROLE ( 'creation_date' ) ;
#117 = PRODUCT_RELATED_PRODUCT_CATEGORY ( 'detail', '', ( #67 ) ) ;
#118 = PERSON_AND_ORGANIZATION_ROLE ( 'design_supplier' ) ;
#119 = CIRCLE ( 'NONE', #43, 25.39999999999999858 ) ;
#120 = CC_DESIGN_SECURITY_CLASSIFICATION ( #150, ( #28 ) ) ;
#121 = DIRECTION ( 'NONE',  ( 0.000000000000000000, 0.000000000000000000, 1.000000000000000000 ) ) ;
#122 = FACE_OUTER_BOUND ( 'NONE', #99, .T. ) ;
#123 = CARTESIAN_POINT ( 'NONE',  ( -3.000000000000001332, 19.05000000000000071, 0.000000000000000000 ) ) ;
#124 = DIRECTION ( 'NONE',  ( -1.000000000000000000, -0.000000000000000000, -0.000000000000000000 ) ) ;
#125 = APPLICATION_PROTOCOL_DEFINITION ( 'international standard', 'config_control_design', 1994, #132 ) ;
#126 = EDGE_CURVE ( 'NONE', #44, #143, #170, .T. ) ;
#127 = APPROVAL_STATUS ( 'not_yet_approved' ) ;
#128 = CC_DESIGN_PERSON_AND_ORGANIZATION_ASSIGNMENT ( #162, #77, ( #31 ) ) ;
#129 = COORDINATED_UNIVERSAL_TIME_OFFSET ( 8, 0, .AHEAD. ) ;
#130 = ORGANIZATION ( 'UNSPECIFIED', 'UNSPECIFIED', '' ) ;
#131 = CC_DESIGN_APPROVAL ( #161, ( #28 ) ) ;
#132 = APPLICATION_CONTEXT ( 'configuration controlled 3d designs of mechanical parts and assemblies' ) ;
#133 = VERTEX_POINT ( 'NONE', #15 ) ;
#134 = APPROVAL_PERSON_ORGANIZATION ( #158, #42, #33 ) ;
#135 = EDGE_CURVE ( 'NONE', #112, #44, #30, .T. ) ;
#136 =( NAMED_UNIT ( * ) PLANE_ANGLE_UNIT ( ) SI_UNIT ( $, .RADIAN. ) );
#137 = AXIS2_PLACEMENT_3D ( 'NONE', #110, #13, #84 ) ;
#138 = DIRECTION ( 'NONE',  ( -1.000000000000000000, -0.000000000000000000, -0.000000000000000000 ) ) ;
#139 = CARTESIAN_POINT ( 'NONE',  ( -1.614212418857619014, 3.110602869834276865E-15, -25.39999999999999858 ) ) ;
#140 = CARTESIAN_POINT ( 'NONE',  ( -3.000000000000000000, 3.110602869834276865E-15, -25.39999999999999858 ) ) ;
#141 = APPROVAL_PERSON_ORGANIZATION ( #51, #161, #149 ) ;
#142 = ORIENTED_EDGE ( 'NONE', *, *, #81, .T. ) ;
#143 = VERTEX_POINT ( 'NONE', #140 ) ;
#144 = CALENDAR_DATE ( 2020, 24, 12 ) ;
#145 = APPROVAL_DATE_TIME ( #115, #71 ) ;
#146 = MECHANICAL_CONTEXT ( 'NONE', #55, 'mechanical' ) ;
#147 = SECURITY_CLASSIFICATION_LEVEL ( 'unclassified' ) ;
#148 = PRODUCT_DEFINITION_SHAPE ( 'NONE', 'NONE',  #31 ) ;
#149 = APPROVAL_ROLE ( '' ) ;
#150 = SECURITY_CLASSIFICATION ( '', '', #147 ) ;
#151 = COORDINATED_UNIVERSAL_TIME_OFFSET ( 8, 0, .AHEAD. ) ;
#152 = LINE ( 'NONE', #41, #16 ) ;
#153 = DATE_AND_TIME ( #102, #50 ) ;
#154 = DIRECTION ( 'NONE',  ( 0.000000000000000000, 0.000000000000000000, 1.000000000000000000 ) ) ;
#155 = DIRECTION ( 'NONE',  ( 0.000000000000000000, 0.000000000000000000, 1.000000000000000000 ) ) ;
#156 = CARTESIAN_POINT ( 'NONE',  ( 3.000000000000000000, 0.000000000000000000, 0.000000000000000000 ) ) ;
#157 = AXIS2_PLACEMENT_3D ( 'NONE', #123, #2, #61 ) ;
#158 = PERSON_AND_ORGANIZATION ( #17, #130 ) ;
#159 =( GEOMETRIC_REPRESENTATION_CONTEXT ( 3 ) GLOBAL_UNCERTAINTY_ASSIGNED_CONTEXT ( ( #9 ) ) GLOBAL_UNIT_ASSIGNED_CONTEXT ( ( #47, #136, #88 ) ) REPRESENTATION_CONTEXT ( 'NONE', 'WORKASPACE' ) );
#160 = APPROVAL_DATE_TIME ( #19, #161 ) ;
#161 = APPROVAL ( #165, 'UNSPECIFIED' ) ;
#162 = PERSON_AND_ORGANIZATION ( #17, #130 ) ;
#163 = CIRCLE ( 'NONE', #108, 25.39999999999999858 ) ;
#164 = CYLINDRICAL_SURFACE ( 'NONE', #25, 25.39999999999999858 ) ;
#165 = APPROVAL_STATUS ( 'not_yet_approved' ) ;
#166 = ADVANCED_FACE ( 'NONE', ( #4 ), #45, .F. ) ;
#167 = FACE_OUTER_BOUND ( 'NONE', #32, .T. ) ;
#168 = ORIENTED_EDGE ( 'NONE', *, *, #70, .T. ) ;
#169 = ORIENTED_EDGE ( 'NONE', *, *, #101, .T. ) ;
#170 = LINE ( 'NONE', #139, #79 ) ;
#171 = EDGE_LOOP ( 'NONE', ( #168, #142 ) ) ;
#172 = CARTESIAN_POINT ( 'NONE',  ( 0.000000000000000000, 0.000000000000000000, 0.000000000000000000 ) ) ;
#173 = APPROVAL_PERSON_ORGANIZATION ( #8, #71, #65 ) ;
#174 = CC_DESIGN_APPROVAL ( #42, ( #31 ) ) ;
#175 = PLANE ( 'NONE',  #21 ) ;
ENDSEC;
END-ISO-10303-21;
